Забыли пароль?

Исполнители:
А Б В Г Д Е Ж З И К Л М Н О П Р С Т У Ф Х Ц Ч Ш Щ Ы Э Ю Я
A B C D E F G H I J K L M N O P Q R S T U V W X Y Z #


Комментарии
fantik.help48,
2020-08-02 11:19:36
Жалко что песню поганят

fantik.help48,
2020-08-02 11:18:32
Можно послушать у меня в фб Наталья Валерьевна

fantik.help48,
2020-08-02 11:18:32
Можно послушать у меня в фб Наталья Валерьевна

fantik.help48,
2020-08-02 11:18:32
Можно послушать у меня в фб Наталья Валерьевна

fantik.help48,
2020-08-02 11:18:32
Можно послушать у меня в фб Наталья Валерьевна

fantik.help48,
2020-08-02 11:07:07
Я могу подсказать что куплеты лучше играть перебором. А припев боем.Но вот кто изменил песню ( морду бы набить) эта песня не дворовая, и называется она Ленинград. Кто сидел, ее все знают. Смысл песни читайте.Город свой убери мудак. Я ребятам скину, как над песней издеваешся.

steppet,
2015-12-05 07:07:38
В оригинале, вместо А играется Am. А вместо D - D7.

visconti.sergio,
2015-08-17 15:28:17
В конце меняется на D

visconti.sergio,
2015-08-17 15:27:46
Такое чувство, что аккорды писали от балды!Последний аккорд в куплете не D, а A

visconti.sergio,
2015-08-17 13:46:53
В припеве вместо E в конце надо Hm.


N - Noize Mc

Выдыхай

E|-----------------------------------------|
H|------0---0---0-1-0-------0---0---1--0---|
G|-----------------------------------------|
D|----2---2---0-------2---2---2---0------2-|
A|----------------------3------------------|
E|--0--------------------------------------|

|---------------------1---------------------|
H|------0---0---0--3--------0---0---1--0----|
|-------------------0----------------------|
D|----2---2---0-----------2---2---0-------2-|
|----------------------3-------------------|
E|--0---------------------------------------|

|-------------------------------------------|
|-------------------------------------------|
|-----2---2---2--0---------------------2--0-|
|---2---2---2--------4--------4---4---4-----|
|-0-------------------------4---4---4-------|
|-----------------------2-------------------|

|----------------------------------------------|
|----------------------------------------------|
|------0----------0---0-----2--2--0----------0-|
|---2-----0----2---------2-----------4----4----|
|------------3-------------------------2-------|
|-0--------------------------------------------|

intro: Em C Em C Am Hm Em-C D-Hm

Em                           C
  Затянись мною в последний раз, 
                        Em
Ткни меня мордой в стекло,
		       C 
Дави меня, туши мою страсть. 
                Am
Буду дымить назло. 
                                  Hm
Боль на фильтре грязным бурым пятном - 
                             Em
Все, что мне от тебя останется.
	C           D 
Урна - мой будущий дом, 
               Hm          Em
И вряд ли мне там понравится. 

Серым пеплом осыпятся вниз 
Те мечты, что не сбудутся никогда. 
Меня вряд ли раскурят на бис. 
Шанс, если и есть, то один из ста. 
Тебе травиться никотином моим, 
Тебе кашлять моими смолами. 
Выдыхай скорей мой последний дым 
И закрывай окно, а то холодно. 

    Em C    DHm     Em      C
	Выдыхай скорей мою душу наружу - ей тесно,
      D             Hm              Em
	В твоих легких так мало места. 
    Em C    DHm     Em      C
	Выдыхай скорей мою душу наружу - ей тесно, 
      D             Hm              C
	В твоих легких так мало места. 
	Но если честно,
             G             Em
	во всем виноват я сам.

проигрыш: Em G Em G Em G D/F#

Em
Наша лестница в небо оказалась расшатанной стремянкой, 
C
Годной лишь на то, чтобы достать с антресоли банку. 
Em
Но я готов был и по ней карабкаться к облакам 
C
Назло запретам и закрытым изнутри замкам. 
Am
Порой казалось - цель близка, скоро доползу. 
Hm
Я с собой тебя звал, но ты оставалась внизу. 
Em                   C
Поднимала глаза, просила вернуться назад, 
D                       Hm
А я не слезал, все твердил тебе про небеса. 

Думал, что сам могу решать за двоих людей. 
Думал, что нам станет лучше от моих идей. 
И цепляясь за надежду, как за одежду репей, 
Становился дальше от тебя еще на ступень. 
Но лестница в небо оказалась расшатанной стремянкой, 
Годной лишь на то, чтоб достать с антресоли банку. 
Возьму подмышку, отнесу в кладовку - пусть пылится. 
Прости за все и, ради Бога, перестань мне сниться. 

	Припев.

проигрыш: Em-C D-Hm (несколько раз)

1|--------10-----------------7--------|
2|-8---8-------8------7---7-------7---|
3|---9-------9---9------7-------7---7-|

прислал: DerycK       просмотров: 4390   
   рейтинг: +5-
Комментарии:

Deryck,
2008-07-21 21:17:47
Кто это всё присылал??Вобще класс)Нойз рУлИТ!
Спасибо)

=8Q,
2008-07-22 08:38:04
Взято с официального сайта

Deryck,
2008-07-24 20:22:02
если можете закинте еще плз

=8Q,
2008-08-12 18:42:54
Кого закинуть?
оставляйте в заказе поиска аккордов записи, будем искать

Regi,
2008-10-15 17:39:47
А как её играть(перебор или бой, если перебор то какой?)...

DerycK,
2008-11-30 18:38:32
Кстати на4альный проигрышь не написан,я могу добавить если кому надо

=8Q,
2008-12-01 14:05:30
добавляй, отредактирую

DerycK,
2009-03-01 23:11:19
добавил

Царь,
2009-05-21 17:24:34
Напишите как боем играть ( по струнам ) (например: первая стрена, третяя и т.д....)

Царь,
2009-05-21 17:26:13
E|-----------------------------------------|
H|------0---0---0-1-0-------0---0---1--0---|
G|-----------------------------------------|
D|----2---2---0-------2---2---2---0------2-|
A|----------------------3------------------|
E|--0--------------------------------------|
1|--------10-----------------7--------|
2|-8---8-------8------7---7-------7---|
3|---9-------9---9------7-------7---7-|
я это не понимаю ((
+ научите читать и грать ...

=8Q,
2009-05-22 00:51:25
Прочти статью: Как читать табулатуры.
на Guitar.Tomsk.Ru есть

Немо,
2009-05-22 15:07:12
А можете полегче подбор написать??
Hm - не оч. подходит, и припев трудновато...

Немо,
2009-05-22 15:07:15
А можете полегче подбор написать??
Hm - не оч. подходит, и припев трудновато...

=8Q,
2009-05-22 19:59:45
просящий полегче подбор ну никак не может говорит о том, что аккорд Hm не подходит. Если у тебя проблемы с барэ, это совсем не значит, что подборка кривая

Немо,
2009-05-22 22:19:15
а Hm - как аккорд зажимается??

Jonik,
2010-01-28 14:08:17
Подборка норм!Аккорды то все простенькие!
Таба оригинал!

Jonik,
2010-01-28 14:11:47
А табы кто читать не умеет,тут же есть описания как их читать!
У меня друг начал на гитаре учиться играть так он вообще аккорды самые простые не знает некоторые зато по табам шпарить научился)

qwert,
2010-01-30 00:25:21
Hm - можно на другой заменить а то сложновато(( подскажите плиз))

GadeZ,
2010-10-11 21:22:51
Напишите словами плиз каким перебором играть(конкретно по струнам) или на мыло скиньте 260897@sibmail.com

=8Q,
2010-10-12 13:48:41
а может таки потратить немножко времени и почитать информацию что такое табулатуры и с чем их есть?

Комментарии могут оставлять только зарегистрированые пользователи