Забыли пароль?

Исполнители:
А Б В Г Д Е Ж З И К Л М Н О П Р С Т У Ф Х Ц Ч Ш Щ Ы Э Ю Я
A B C D E F G H I J K L M N O P Q R S T U V W X Y Z #


Комментарии
fantik.help48,
2020-08-02 11:19:36
Жалко что песню поганят

fantik.help48,
2020-08-02 11:18:32
Можно послушать у меня в фб Наталья Валерьевна

fantik.help48,
2020-08-02 11:18:32
Можно послушать у меня в фб Наталья Валерьевна

fantik.help48,
2020-08-02 11:18:32
Можно послушать у меня в фб Наталья Валерьевна

fantik.help48,
2020-08-02 11:18:32
Можно послушать у меня в фб Наталья Валерьевна

fantik.help48,
2020-08-02 11:07:07
Я могу подсказать что куплеты лучше играть перебором. А припев боем.Но вот кто изменил песню ( морду бы набить) эта песня не дворовая, и называется она Ленинград. Кто сидел, ее все знают. Смысл песни читайте.Город свой убери мудак. Я ребятам скину, как над песней издеваешся.

steppet,
2015-12-05 07:07:38
В оригинале, вместо А играется Am. А вместо D - D7.

visconti.sergio,
2015-08-17 15:28:17
В конце меняется на D

visconti.sergio,
2015-08-17 15:27:46
Такое чувство, что аккорды писали от балды!Последний аккорд в куплете не D, а A

visconti.sergio,
2015-08-17 13:46:53
В припеве вместо E в конце надо Hm.


Ч - Чайф

Никто не услышит (Ой-йо)

     C            G              Am     F   (G)
От старых друзей весточки нет, грустно.
А на душе от свежих газет пусто.
И от несвежих - невелика потеха.
Правда вот был армейский дружок - уехал.

Ой-йо, ой-йо, ой-йо. Ой-йо, ой-йо, ой-йо.

Запил сосед - у них на фабрике стачка.
С чаем беда - осталась одна пачка.
На кухне записка: "Не жди, останусь у Гали".
По телеку рядятся, как дальше жить - достали.

Ой-йо, ой-йо, ой-йо. Ой-йо, ой-йо, ой-йо.

Скорей бы лед встал. Пошел бы тогда на рыбалку.
Чего бы поймал - знакомым раздал, не жалко.
Луна появилась и лезет настырно все выше и выше.
Сейчас со всей мочи завою с тоски - никто не услышит.

Ой-йо, ой-йо, ой-йо. Никто не услышит.
4 раза.

  CGAm
  1-|----0-------0-0---------3-----3-3------0----0-0-0----0-0-0------------
  2-|----1-------1-1---------0-----0-0------1----1-1-1----1-1-1------------
  3-|----0-------0-0---------0-----0-0------2----2-2-2----2-2-2------------
  4-|--2-------------------0---------------2----2---------3----------------
  5-|----------3--------3--------2------2----------------------------------
  6-|----------------------------------------------------------------------
     От старых друзей весточки нет грустно..........

     CGAm
  1-|-----------0----------------3---------------0---------------0-------0---
  2-|--------1----1-----------0---0-----------1---1----------1--------1------
  3-|------0--------0-------0-------0-------2-------2------2--------2--------
  4-|----2------------2---0-----------0---2-----------2--2--------3----------
  5-|--3----------------2----------------0-----------------------------------
  6-|------------------------------------------------------------------------

прислал: unknown       просмотров: 2014   
   рейтинг: +0-
Комментарии:

Комментариев нет
Комментарии могут оставлять только зарегистрированые пользователи