Забыли пароль?

Исполнители:
А Б В Г Д Е Ж З И К Л М Н О П Р С Т У Ф Х Ц Ч Ш Щ Ы Э Ю Я
A B C D E F G H I J K L M N O P Q R S T U V W X Y Z #


Комментарии
fantik.help48,
2020-08-02 11:19:36
Жалко что песню поганят

fantik.help48,
2020-08-02 11:18:32
Можно послушать у меня в фб Наталья Валерьевна

fantik.help48,
2020-08-02 11:18:32
Можно послушать у меня в фб Наталья Валерьевна

fantik.help48,
2020-08-02 11:18:32
Можно послушать у меня в фб Наталья Валерьевна

fantik.help48,
2020-08-02 11:18:32
Можно послушать у меня в фб Наталья Валерьевна

fantik.help48,
2020-08-02 11:07:07
Я могу подсказать что куплеты лучше играть перебором. А припев боем.Но вот кто изменил песню ( морду бы набить) эта песня не дворовая, и называется она Ленинград. Кто сидел, ее все знают. Смысл песни читайте.Город свой убери мудак. Я ребятам скину, как над песней издеваешся.

steppet,
2015-12-05 07:07:38
В оригинале, вместо А играется Am. А вместо D - D7.

visconti.sergio,
2015-08-17 15:28:17
В конце меняется на D

visconti.sergio,
2015-08-17 15:27:46
Такое чувство, что аккорды писали от балды!Последний аккорд в куплете не D, а A

visconti.sergio,
2015-08-17 13:46:53
В припеве вместо E в конце надо Hm.


У - Ундервуд

Гагарин, я Вас любила

Intro:

1|----------------------------|
2|----------------------------|
3|----------------------------| X3
4|----------------------------|
5|----------1-2-------1-2-----|
6|-7/-0-3-0-----0-3-0-----3-0-|

1|-------------------------|
2|-----------5-5-3---------|
3|-----------------2-0-----|
4|---------------------2-2-|
5|-------1-2---------------|
6|-0-3-0-------------------|

Em
Он обернулся простой такой
Am              C    H
И белозубый и незнакомый
Em
Пригладил волосы рукой
Am              C    H
Пока еще не сведен оскомой
Добрый добрый рот его 
Нежной нежной щетиной рыжей
Касался пусть бы был никто 
Прощай прощай родной бесстыжий

Рефрэйн:

"...Жизнь пило-пилотаж..."

4|---3-0-------3-0-----
5|-------3-0-------3-0-
6|-1---------1---------


4----------------------
5|-----0-1-1-2-1-2-----0-1-1-2-1-2-
6|-0-3-------------0-3-------------

"...Жизнь крыла спалила..."

4|---3-0-------3-0---------------------------|
5|-------3-0-------3-0-2-2-2-2-2/9-9-9-9-7-5-|
6|-1---------1-------------------------------|


  F              Em
 Жизнь пило-пилотаж
  F         H     
 Жизнь крыла спалила

Припев:

"...Гагарин я вас любила о-о-о ла-ла-ла-лай..."

3|--------------------------------------------------|
4|-2-2/5-4-4/7-5-5/9-7-7/10-9-9-5-7-7-4-5-5-2-------|
5|--------------------------------------------2-2---|


    Em   Am           Em          H
 Гагарин я вас любила о ла-ла-ла-лай
    Em   Am           Em          H
 Гагарин я вас любила о ла-ла-ла-лай
    Em   Am           Em          H
 Гагарин я вас любила о ла-ла-ла-лай
    Em   Am           Em          H
 Гагарин я вас любила о 

Не знал он после как долго я 
Была осколком его деталей
И в спину била его струя 
И жал он молча свои педали
Больно больно потом упал
Расшибился из под обломков 
Извлек себя и начертал 
На фюзеляже златой иглокой

Рефрэйн

Припев

Главное соло - слушать очень внимательно:
(играется тремоло)

1|----------------------------------
2|----------------------------------
3|----------------------------------
4|-2-4-5-10-9-7-5-4-5-2-1-4-2---5-4-
5|----------------------------2-----
6|----------------------------------

                                    
1|----------------------------------11-14-12-
2|-------------------------12-11-12----------
3|----------4-8-9-11-14-12-------------------
4|-2-4-5-10----------------------------------
5|-------------------------------------------
6|-------------------------------------------

1|-12-12-12-10-----------13-13-------13-13-------
2|-------------10--13-13-------13-13-------13-13-
3|-----------------------------------------------


1|-------12-12-------12-12--------------13-13-------
2|-12-12-------12-12-------12-12--13-13-------13-13-
3|--------------------------------------------------

1|--13-13-15-15-17-17-17-19-22-19-22-19-22-19-22-
2|-----------------------------------------------
3|-----------------------------------------------

 тремоло
1|----12----10-8-7-5-3-7-7-7-6-5-|
2|-12----12----------------------| X2
3|-------------------------------|


Как будто правда что млечный путь 
Господь спустил ему на лампасы
Его погоны горят как ртуть 
Он так прекрасен что нас колбасит
Белым светом наполнен он
Добрый славный себе смеется
Душа его как полигон
Ему светло и ей поется

Рефрэйн

Припев

прислал: unknown       просмотров: 973   
   рейтинг: +0-
Комментарии:

Комментариев нет
Комментарии могут оставлять только зарегистрированые пользователи