Забыли пароль?

Исполнители:
А Б В Г Д Е Ж З И К Л М Н О П Р С Т У Ф Х Ц Ч Ш Щ Ы Э Ю Я
A B C D E F G H I J K L M N O P Q R S T U V W X Y Z #


Комментарии
fantik.help48,
2020-08-02 11:19:36
Жалко что песню поганят

fantik.help48,
2020-08-02 11:18:32
Можно послушать у меня в фб Наталья Валерьевна

fantik.help48,
2020-08-02 11:18:32
Можно послушать у меня в фб Наталья Валерьевна

fantik.help48,
2020-08-02 11:18:32
Можно послушать у меня в фб Наталья Валерьевна

fantik.help48,
2020-08-02 11:18:32
Можно послушать у меня в фб Наталья Валерьевна

fantik.help48,
2020-08-02 11:07:07
Я могу подсказать что куплеты лучше играть перебором. А припев боем.Но вот кто изменил песню ( морду бы набить) эта песня не дворовая, и называется она Ленинград. Кто сидел, ее все знают. Смысл песни читайте.Город свой убери мудак. Я ребятам скину, как над песней издеваешся.

steppet,
2015-12-05 07:07:38
В оригинале, вместо А играется Am. А вместо D - D7.

visconti.sergio,
2015-08-17 15:28:17
В конце меняется на D

visconti.sergio,
2015-08-17 15:27:46
Такое чувство, что аккорды писали от балды!Последний аккорд в куплете не D, а A

visconti.sergio,
2015-08-17 13:46:53
В припеве вместо E в конце надо Hm.


Т - Тараканы

Я смотрю на них

                     intro:      
                gtr e|------------------------------------------|
                    H|------------------------------------------|
                    G|------------------------------------------|
                    D|-----4-3-4p3-----4-3-4p3------3---4---6---|
                    A|--4-----------4------------4--------------|
                    E|------------------------------------------|
                     |
                bassG|------------------------------------------|
                    D|------------------------------3---4---6---|
                    A|--4------------------------4--------------|
                    E|------------------------------------------|

                gtr e|------------------------------------------|-------------------------------------------|
                    H|------------------------------------------|-------------------------------------------|
                    G|------------------------------------------|-------------------------------------------|
                    D|----7-6-7p6---7-6-7p6---7-6-7p6-----------|---7-6-7p6---7-6-7p6---7-6-7p6---7-6-7p6---|
                    A|--4---------4---------5---------5--5p4h5p4|-5---------5---------7---------8-----------| x2
                    E|------------------------------------------|-------------------------------------------|
                     |
                bassG|------------------------------------------|-------------------------------------------|
                    D|------------------------------------------|-------------------------------------------|
                    A|--4-(x14)-------------5-(x8)-------5p4h5p4|-5-(x14)-------------7-(x8)----8-(x4)------|
                    E|------------------------------------------|-------------------------------------------|

                
                F#m
                Я помню как на выпускном
                          D
                вручили всем фотоальбом
                  Hm                        E               C#
                Групповые фотки, класс за классом , были в нем
                
                Вот ухмыляются мои друзья,
                вот с ней мутить пытался я
                29 человек,
                друг за другом в три ряда
                
Припев:           
                F#m
                Я смотрю на эти лица,
                  D
                кто кем стал теперь
                 Hm                E
                Десять лет назад, десятый класс
                
                Каждый выходил в мир
                Через собственную дверь
                Кто мог знать, что ждет снаружи нас?
                
                
                Она торчит, вот этот мент
                Привет-пока, пока-привет
                А он вернулся из Чечни,без башни и без полноги
                Тому сидеть еще пять лет
                А вот его уже на свете нет
                А к ней наверно до сих пор легко вписаться на обед

Припев.         

                gtr e|------------------------------------------|
                 +  H|--7-6--6-6--7--6---7-6--6-6--7--6---------|
                bassG|------------------------------------------|
                    D|------------------------------------------|
                    A|-------4----2------4----2-----------------|
                    E|--2--------------------------5--4---------|

                bassG|------------------------------------------|
                    D|------------------------------------------|
                    A|----------2----------2-4-22--------------2|
                    E|-2--2-4-5---2--2-4-5--------55-4h5-2-4-5--|

                gtr G|------------------------------------------|
                 +  D|------------------------------------------|
                bassA|----------2----------2-4-22--------------2|
                    E|-2--2-4-5---2--2-4-5--------55-4h5-2-4-5--|



                
Припев:           
                F#m 
                Я смотрю на них
                G#m
                Я смотрю на эти лица,
                  E
                кто кем стал теперь
                 C#m                F#
                Десять лет назад, десятый класс
                
                Каждый выходил в мир
                Через собственную дверь
                Кто мог знать, что ждет снаружи нас?
                
                
                
                G#m                          E                            C#m
                Я смотрю на них, смотрю на них, смотрю на них, смотрю на них,
                                          F#
                Смотрю на них, смотрю на них, смотрю на них
                           G#m                           E
                Смотрю на них, смотрю на них, смотрю на них, смотрю на них, 
                           C#m                            F#
                Смотрю на них, смотрю на них, смотрю на них, смотрю на них,
                Смотрю 

                outro:
                gtr e|-------------------------------------------------------------------------------------|
                    H|-------------------------------------------------------------------------------------|
                    G|-------------------------------------------------------------------------------------|
                    D|---9-8-9p8---9-8-9p8---9-8-9p8----9-8-9p8--------------------------------------------|
                    A|-6---------7---------9---------10---------11-11(fast slide down)---------------------|
                    E|-------------------------------------------------------------------------------------|
                     |
                bassG|------------------------------------------------|
                    D|------------------------------------------------|
                    A|-6---------7---------9---------10---------11----|
                    E|------------------------------------------------|

прислал: unknown       просмотров: 1389   
   рейтинг: +0-
Комментарии:

Комментариев нет
Комментарии могут оставлять только зарегистрированые пользователи